All tabs: 1331484
We love you! Do you like us?

How to read Chords tabs





How to Read Guitar Tab Chords


There is an example how looks Eminor in tabs.

 e|--0----------------------------
B|--0----------------------------
G|--0----------------------------
D|--2----------------------------
A|--2----------------------------
E|--0----------------------------

How to read this Tab chord? If you read the diagram you would play
this on a guitar by putting your finger just behind the 2nd frets
on the 5th and 4th strings. The ‘zero’ represents playing an open
string.
On the below tablature you can see Chord E playing three times.

 e|--0--0--0---------------------
B|--0--0--0---------------------
G|--1--1--1---------------------
D|--2--2--2---------------------
A|--2--2--2---------------------
E|--0--0--0---------------------