All tabs: 1331485
We love you! Do you like us?
Bands » Yngwie Malmsteen » Black Star » Bass tab

Black Star by Yngwie Malmsteen bass tab

This is the final page that leads you directly to the Guitar Pro tab, drum tab, bass guitar tab, piano chord, etc you've chosen. This page provides information concerning Black Star bass tab such as its format, type of tab or chord, upload date, number of views, number of downloads and rating of this tab provided by tabsbest.com users.

If the tab you have selected is a downloadable one (mostly these are Yngwie Malmsteen Guitar Pro tabs), you need to insert so called "captcha" code and click "download" button. In case the code is correct you will be redirected to download page where your Black Star gp4 file will be prepared. If you have entered wrong "captcha" code, you will be asked to insert it once again to get your Black Star bass tab.

If you browse all Yngwie Malmsteen tabs or open the list of tabs and chords for Black Star, you can see there are not only Guitar Pro tabs. Guitar tabs and chords, piano & power tabs, drum tabs, bass tabs - they all can be not only in Guitar Pro file format, but also in txt. In this case no special program is needed to read the tab. All you need to do it to open such Black Star tab and you will see it displayed. If you wish, you can download our free tabs in txt.

tabsbest.com tries to expand tabs database, adding new and hot songs as well as old and beloved melodies, so our archive could suit any person. Also we try to add chords and files for different music instruments, for example, you can find Yngwie Malmsteen acoustic guitar tabs, piano chords or power tabs. Many songs like Black Star have not only Black Star bass tab type, but provide wide selection of chords and tabs for all instruments. We also try to add more Yngwie Malmsteen Guitar Pro tabs as they can bear data for whole band including sheet music.

Our newest addition - Yngwie Malmsteen lyrics - is viewed the same. Select "lyrics" in the list of the tabs and chords and the text will be displayed on the next page.

File info:


Share it:

Rate it:
Rating: 0
Band nameYngwie Malmsteen »
Song nameBlack Star »
Tab typeBass tab »
Added07/14/2008
Size11.47 Kb
File formattxt
Views/Loads2/0

Wrong code.

Text of tab

   
---------- Forwarded message ----------
Date: Thu, 13 Nov 1997 21:23:28 -0600 (CST)
From: letostak@ix.netcom.com
To: guitar@olga.net
Subject: BTAB: Yngwie Malmsteen - Black Star

Yngwie Malmsteen - Black Star
from Rising Force
tune down 1/2 step



|----------|------------|--------------------------------------|-------|
|----------|------------|--------------------------------------|-------|
|----------|------------|--------------------------------------|--%----|
|----------|------------|---0----0--0--12---0--0--12--0--0-|-------|
                                                                        
                                                                        
|--------------------------------------|-------|------|------|-----|---|
|--------------------------------------|-------|------|------|-----|---|
|--------------------------------------|--%----|---%--|---%--|--%--|-%-|
|---0----0--0--12---0--0--12--0--0-|-------|------|------|-----|---|
                                                                        
                                                                        
|--------------------------------------|----------|---------|----------|
|--------------------------------------|----------|---------|----------|
|--------------------------------------|------%---|--%------|---%------|
|---0----0--0--12---0--0--12--0--0-|----------|---------|----------|
                                                                        
                                                                        
|--------------------------------------|----------|---------|----------|
|--------------------------------------|----------|---------|----------|
|--------------------------------------|------%---|--%------|---%------|
|---0----0--0--12---0--0--12--0--0-|----------|---------|----------|
                                                                        
                                                                        
||-------------------------------------|----------|---------|----------|
||o------------------------------------|----------|---------|----------|
||o------------------------------------|------%---|--%------|---%------|
||--0----0--0--12---0--0--12--0--0-|----------|---------|----------|
                                                                        
                                                                        
|--------------------------------------|-------------------------------|
|--------------------------------------|-------------------------------|
|--------------------------------------|------%------------------------|
|---0----0--0--12---0--0--12p0--0--0-|-------------------------------|
                                                                        
                                                                        
|--------------------------------------|------------|-------------------
|--------------------------------------|------------|-------------------
|--------------------------------------|------%-----|-------7-6---------
|---0----0--0--12---0--0--12p0--0--0-|------------|-5-7-8-----8-7-5-8-
                                                                        
                                                                        
----------------|-----------------------------------|-------------------
------7---------|-----------------------------------|-------------------
----7---7-6-----|-------7-6---------------7h9-7-6---|-------7-6---------
--7---------8-7-|-5-7-8-----8-7-5-8-7-5-8---------8-|-5-7-8-----7h8-7-5-


--------------------|-------------------5-------4------------||
---------------10-9-|---------------------5-7------0-2-0----o||
------10-9-7-6------|-------7-6---------------7-------------o||
--8-7---------------|-5-7-8-----7h8-7-5----------------------||
                                                                        

Guitar Solo
                                                                        
||-----------------------------------------|-----------|---------|----||
||o----------------------------------------|-----------|---------|---o||
||o----------------------------------------|----%------|---%-----|-%-o||
||----0--0--0--12-0--0--0--0-12p0--0--0--|-----------|---------|----||
                                                                        
                                                                        
|---------------------------------------------|-------------------------
|------------7--------------------------------|------------3------------
|--0---0--0------0--0--0----0--0--5--2--0-----|-------------------------
|------------------------------------------3--|-1----1--1-----1--1--1---
                                                                        
                                                                        
--------------------|--------------------------------------------------|
--------3--0--------|-------------7------------------------------------|
--------------2-----|--0----0--0------------0----0--0--5--0--0---------|
--1--1-----------3--|-----------------5--0----------------------3------|
                                                                        
                                                                        
|-----------------------------------|-----------------------------------|
|------------3----------3-----------|-----------------------------------|
|-----------------------------------|-------7-6-----------9-7-7-5-------|
|-1----1--1-------1--1-----1--1--1--|-5-7-8-----8-7-5-8-7---------8-7---|
                                                                        
                                                                        
|-----------------------------------|-----------------------------------
|-----------------------------------|--------------------------------10-
|-------7-6---------------7h9-7-5---|-------7-6-------------10-9-7-6----
|-5-7-8-----8-7-5-8-7-5-8---------8-|-5-7-8-----7h8-7-5-8-7-------------
                                                                        
                                                                        
------|--------------------5-4-7-------------|
--9---|--------------------------------------|
------|-------7-6-----------------7-5--------|
------|-5-7-8-----7h8-7-5--------------8-7-5-|
                                                                        
                                                                        
|--------------------------------|------------------|------------------|
|--------------------------------|------------------|------------------|
|--------------------------------|---------%--------|--------%---------|
|-0--0-0-12-0-0--0-0-12p0-0-0--|------------------|------------------|
                                                                        
                                                                        
|------------------------------------|----------------------------------|
|------------------------7-----------|----------------------------------|
|---------------------------9--7-----|----------------------------------|
|-0--0-0-12-0-0--0--0-----------7--|-0--0--0-12--0-0-0--0-0-12p0-0-0|


|-------------------------------|--------------------------|------------
|-------------------------------|--------------------------|------------
|----------------------------2--|--------------------------|------------
|-0--0-0-12-0-0--0-0-2-3-5----|-0-0-0-12-0-0-12p0-0-0--|-0--0-0-12
                                                                        
                                                                        
---------------------|---------------------------------|---------------|
---------------------|---------------------------------|---------------|
------------7-5------|---------------------------------|-------%-------|
--0-0--0-0------7-0--|-0--0-0-12--0-0--0-0-12p0--0-0-|---------------|
                                                                        
                                                                        
|--------------------------------|-------------------------------------|
|--------------------------------|-------------------------------------|
|--------------------------------|---------------------9-8-7-----------|
|-0--0-0-12-0-0--0-0-12p0-0-0--|-0--0-012-0-0--0-0--------7--------|
                                                                        
                                                                        
|--------------------------------|--------------------------------|
|--------------------------------|--------------------------------|
|--------------------------------|----------------------------6---|
|-0--0-0-12-0-0--0-0-12p0-0-0--|-0--0-0-12-0-0--2-3-5-7-8---7-|
                                                                        
                                                                        
|--------------------------------|--------------------------------|
|--------------------------------|----------------------2-1-5-4---|
|--------------------------------|------------------3-2---------2-|
|-0--0-0-12-0-0--0-0-12p0-0-0--|-0--0-0-12-0-0----------------|
                                                                        
                                                                        
|--------------------------------|--------------------------------|
|--------------------------------|-----------------------2-5-4-2--|
|--------------------------------|------------------3--2----------|
|-0--0-0-12-0-0--0-0-12p0-0-0--|-0--0-0-12-0-0----------------|
                                                                        
                                                                        
|----------------------------------------------|
|--/14~----------------------------------------| fade out
|----------14--10/11---------------------------|
|---------------------0----0--0--20p0--0--0----|
                                                                        
                                                            
=======================================================================
h = hammeron                    Judy Letostak                         
p = pulloff                     Internet letostak@ix.netcom.com
/ = slide                      Fidonet 1:202/762                     
x = ghost note                  MetalNet 182:100/2                    
t = tap (right hand)            The Music Shop BBS (619)423-4970 24hrs
~ = vibrato                     * = picked harmonic
bf = bend full                  tr = trill
rb = release bend               p.s. = pick scrape
dive = dive with bar            b = bend / step written over note
========================================================================
The Music Shop BBS (619)423-4970  24hrs
Tons of music files, tab, sound files, pictures...LORD, BRE, Falcons Eye
(interplanetary).  In a Band?  I feature bands on my BBS FREE!!!!!! No cost
or ratios. Email me for more info or call my bbs, I will validate you if
you are calling LD.
Gossamer Axe, Wilfred N. and the Grown Men, Porcupine 9, Nation of Lies
Natasha's Ghost....Add your band to this 
list!


letostak@ix.netcom.com  Judy Letostak
http://www.fortunecity.com/tinpan/agnetha/59/index.html
Metal Edge (619)423-4970 24/7  RioT Member board
Guitar/Bass tab, MP3s, Appz...Iniquity v1.01


Add comment: