All tabs: 1331484
We love you! Do you like us?
Bands » 6 Cycle Mind » Sige » Guitar tab

Sige by 6 Cycle Mind guitar tab

This is the final page that leads you directly to the Guitar Pro tab, drum tab, bass guitar tab, piano chord, etc you've chosen. This page provides information concerning Sige guitar tab such as its format, type of tab or chord, upload date, number of views, number of downloads and rating of this tab provided by tabsbest.com users.

If the tab you have selected is a downloadable one (mostly these are 6 Cycle Mind Guitar Pro tabs), you need to insert so called "captcha" code and click "download" button. In case the code is correct you will be redirected to download page where your Sige gp4 file will be prepared. If you have entered wrong "captcha" code, you will be asked to insert it once again to get your Sige guitar tab.

If you browse all 6 Cycle Mind tabs or open the list of tabs and chords for Sige, you can see there are not only Guitar Pro tabs. Guitar tabs and chords, piano & power tabs, drum tabs, bass tabs - they all can be not only in Guitar Pro file format, but also in txt. In this case no special program is needed to read the tab. All you need to do it to open such Sige tab and you will see it displayed. If you wish, you can download our free tabs in txt.

tabsbest.com tries to expand tabs database, adding new and hot songs as well as old and beloved melodies, so our archive could suit any person. Also we try to add chords and files for different music instruments, for example, you can find 6 Cycle Mind acoustic guitar tabs, piano chords or power tabs. Many songs like Sige have not only Sige guitar tab type, but provide wide selection of chords and tabs for all instruments. We also try to add more 6 Cycle Mind Guitar Pro tabs as they can bear data for whole band including sheet music.

Our newest addition - 6 Cycle Mind lyrics - is viewed the same. Select "lyrics" in the list of the tabs and chords and the text will be displayed on the next page.

File info:


Share it:

Rate it:
Rating: 0
Band name6 Cycle Mind »
Song nameSige »
Tab typeGuitar tab »
Added04/30/2008
Size6.58 Kb
File formattxt
Views/Loads4/0

Wrong code.

Text of tab

   
Title: Sige
Artist: 6 cycle mind
Album: Permission to Shine
Tabbed by: Koko capule
Tuning: Normal,(E,A,D,G,B,E)

*  >>>>-0->>>>>>-------------------0->>>>>>-|
B|---------6->>>>>>----------3->>>>>>-6->>>>>>----------|
G|-5->>>>>-5->>>>>>-5->>>>>>-4->>>>>>-4->>>>>>-4->>>>>>-|
D|------------------------------------------------------|
A|------------------------------------------------------|
E|------------------------------------------------------|
   A                          F
E|-------------------0->>>>>>---------------------------|
B|-1->>>>>>-6->>>>>>------------------------------------|
G|-0->>>>>>-0->>>>>>-0->>>>>>---------------------------|
D|----------------------------3->>>>>>>>>>>>>>>>>>>>>>>-|
A|------------------------------------------------------|
E|----------------------------1->>>>>>>>>>>>>>>>>>>>>>>-|

then

   C                         E
E|-0->>>>>-0->>>>>>-0->>>>>>-------------------0->>>>>>-|
B|---------6->>>>>>----------3->>>>>>-6->>>>>>----------|
G|-5->>>>>-5->>>>>>-5->>>>>>-4->>>>>>-4->>>>>>-4->>>>>>-|
D|------------------------------------------------------|
A|------------------------------------------------------|
E|------------------------------------------------------|

E|--------------------------------------------------------|
B|--------------------------------------------------------|
G|-4->>>>>>-5->>>>>>-7->>>>>>-6->>>>>>-8->>>>>>-10->>>>>>-|
D|--------------------------------------------------------|
A|--------------------------------------------------------|
E|-3->>>>>>-3->>>>>>-6->>>>>>-5->>>>>>-5->>>>>>-7-->>>>>>-|

-------------------------------------------------------
Repeat pre-chorus

Repeat chorus

-------------------------------------------------------
Solo:

During the solo, guitar 1 will play the chords
from the chorus(C,G,Am,F) two times.
   C                                 Em
E|---------------------------------------------------------------------|
B|---------------------------------------------------------------------|
G|-5-0-0-7-0-0-9-0-0-10-0-0-9-0-7*b-0-7-0-0-9-0-0-10-0-0-12-0-0-10-0-9-|
D|---------------------------------------------------------------------|
A|---------------------------------------------------------------------|
E|---------------------------------------------------------------------|

   Am                                  F
E|---------------------------------8*b------8-12p10-10-|
B|-------------------------------------8s10------------|
G|-9h10-12-9h10-12-9h10-12-9h10-12---------------------|
D|-----------------------------------------------------|
A|-----------------------------------------------------|
E|-----------------------------------------------------|

   C
E|----------12-15-12----------------12-15-12-------|
B|-------15----------15----------15----------15----|
G|----14----------------14----14----------------14-|
D|-12----------------------12----------------------|
A|-------------------------------------------------|
E|-------------------------------------------------| 

   Em
E|----------12-17-12----------------12-17-12-------|
B|-------15----------15----------15----------15----|
G|----14----------------14----14----------------14-|
D|-12----------------------12----------------------|
A|-------------------------------------------------|
E|-------------------------------------------------| 

   Am
E|----------12-15-12--------------------|
B|-------15----------15-13-15b-13-15-15-|
G|----14--------------------------------|
D|-12-----------------------------------|
A|--------------------------------------|
E|--------------------------------------|

   F
E|-----------------|
B|-7s8-------------|
G|-----7-5---7*b~~-|
D|---------7-------|
A|-----------------|
E|-----------------|
--------------------------------------------------------------
Repeat pre-chorus
--------------------------------------------------------------
Bridge:

Gtr.2

E|---8------8----8------8-----8------8-------8------8---|
B|-----8------8----8------8-----8------8---8---8------8-|
g|------------------------------------------------------|
D|------------------------------------------------------|
A|--------------------------0------0-----8--------8-----|
E|-8------8-----0-----0---------------------------------|
--------------------------------------------------------------
Both guitars are distorted.

Gtr.1
   C               G               Am              
E|-------------------------------------------------|
B|-------------------------------------------------|
G|-5-5-5-5-5-5-5-5---------------------------------|
D|-5-5-5-5-5-5-5-5-5-5-5-5-5-5-5-5-7-7-7-7-7-7-7-7-|
A|-3-3-3-3-3-3-3-3-5-5-5-5-5-5-5-5-7-7-7-7-7-7-7-7-|
E|-----------------3-3-3-3-3-3-3-3-5-5-5-5-5-5-5-5-|

                                                      
Gtr.2                                                 
   C               E                   Am
E|-------------------------------------------------------------|
B|-------------------------------------10-10-10-10-10-10-10-10-|
G|-5-5-5-5-5-5-5-5-9-9-9-9-9-9-9-9-9-9--9--9--9--9--9--9--9--9-|
D|-5-5-5-5-5-5-5-5-9-9-9-9-9-9-9-9-9-9--7--7--7--7--7--7--7--7-|
A|-3-3-3-3-3-3-3-3-7-7-7-7-7-7-7-7-7-7-------------------------|
E|-------------------------------------------------------------|
-----------------------------------------------------------------

Gtr.1

E|---------------------------------|
B|---------------------------------|
G|---------------------------------|
D|-3-3-3-3-3-3-3-3-5-5-5-5-5-5-5-5-|
A|-3-3-3-3-3-3-3-3-5-5-5-5-5-5-5-5-|
E|-1-1-1-1-1-1-1-1-3-3-3-3-3-3-3-3-|

Gtr.2

E|-------------------------------|
B|-------------------------------|
G|-3---3-3-3s5s3---3s5-5-3s5-5-3-|
D|-3---3-3-3s5s3---3s5-5-3s5-5-3-|
A|-1---1-1-1s3s1---1s3-3-1s3-3-1-|
E|-------------------------------|
-----------------------------------------------------------------
Repeat chorus

Repeat intro
-----------------------------------------------------------------

that's it!! plees rate!!

Lyrics:

Verse1

Sige!
'pag kasama ka naman
kitang-kita ko ang ating kasiyahan!!!

Sige!
wag na nating pigilan,
at di magtatagal, tayo ay liligaya!!! 

Pre-chorus

Okey lang naman ang ating
usapan
hindi na lang babalikan 
ang nakaraan, ang nakaraan!!!

Chorus

Ayos lang! basta't kasama

konting alak lang, kahit walang pulutan

ang minsan naaalala,
di magtatagal, tayo ay liligaya, woah

Verse2

Sige! pagpatuloy niyo lang
unti-unting lunurin
sa kasiyahan!!!

sige! pagpasensyahan na lang,
mga pumipigil
sa ating ligaya!

Repeat pre-chorus

Repeat chorus

Solo

Repeat pre-chorus

Repeat chorus x2


Add comment: